Автор: Гость 22.06.2017
Вступление:

     Hm                     A
E||----------------------|----------------------|
H||----------------------|----------------------|
G||----------------------|----------------------|
D||-----------------2----|-----------------2----|
A||--2----4----5---------|--0----4----5---------|      
E||----------------------|----------------------|       
                                                         
   G                      G         F#7                  
|----------------------|--------------------------||    
|----------------------|--------------------------||   
|----------------------|--------------------------||
|-----------------2----|------------2----2--------||
|-------4----5---------|-------4------------5--4--||
|--3-------------------|--3---------2-------------|| 

Hm      Em
Замолчал пулемет,
        A       D
Снег тихонечко тает,
       Hm         Em
Кто затих, кто живет,
        F#7     Hm
Кто от ран умирает...  
 
А вокруг бродит смерть,
Горы в страхе застыли,
До конца догореть 
В этой огненной пыли...

 Em             Hm
Рота уходит на небо
   Em  A              D
Строем,   один за другим.
 Em                     Hm 
Бог здесь давно уже не был,
С#7     F#7               Hm      F#7
Он ведь     на всех нас один...

Умирал командир,
Оставались мальчишки,
И кричал он в эфир :
"Все, прощайте, братишки!"

Уходили они
Под свинцовые трели
И весенние дни
В их глазах леденели.

Припев - 2 раза, заканчивается аккордами вступления






Создать аккаунт

Кто на сайте?

Онлайн всего: 1
Гостей: 1
Пользователей: 0

Популярное

Реклама

О сайте